  0
SECTION
  2
HEADER
  9
$ACADVER
  1
AC1015
  9
$ACADMAINTVER
 70
     6
  9
$DWGCODEPAGE
  3
ANSI_1254
  9
$INSBASE
 10
0.0
 20
0.0
 30
0.0
  9
$EXTMIN
 10
0.0
 20
0.0
 30
0.0
  9
$EXTMAX
 10
279.4
 20
215.9
 30
0.0
  9
$LIMMIN
 10
0.0
 20
0.0
  9
$LIMMAX
 10
279.4
 20
215.9
  9
$ORTHOMODE
 70
     0
  9
$REGENMODE
 70
     1
  9
$FILLMODE
 70
     1
  9
$QTEXTMODE
 70
     0
  9
$MIRRTEXT
 70
     1
  9
$LTSCALE
 40
1.0
  9
$ATTMODE
 70
     1
  9
$TEXTSIZE
 40
3.5
  9
$TRACEWID
 40
1.0
  9
$TEXTSTYLE
  7
Standard
  9
$CLAYER
  8
0
  9
$CELTYPE
  6
ByLayer
  9
$CECOLOR
 62
   256
  9
$CELTSCALE
 40
1.0
  9
$DISPSILH
 70
     0
  9
$DIMSCALE
 40
1.0
  9
$DIMASZ
 40
3.5
  9
$DIMEXO
 40
1.0
  9
$DIMDLI
 40
3.75
  9
$DIMRND
 40
0.0
  9
$DIMDLE
 40
0.0
  9
$DIMEXE
 40
1.0
  9
$DIMTP
 40
0.0
  9
$DIMTM
 40
0.0
  9
$DIMTXT
 40
3.5
  9
$DIMCEN
 40
2.5
  9
$DIMTSZ
 40
0.0
  9
$DIMTOL
 70
     0
  9
$DIMLIM
 70
     0
  9
$DIMTIH
 70
     1
  9
$DIMTOH
 70
     1
  9
$DIMSE1
 70
     0
  9
$DIMSE2
 70
     0
  9
$DIMTAD
 70
     1
  9
$DIMZIN
 70
     0
  9
$DIMBLK
  1

  9
$DIMASO
 70
     1
  9
$DIMSHO
 70
     1
  9
$DIMPOST
  1

  9
$DIMAPOST
  1

  9
$DIMALT
 70
     0
  9
$DIMALTD
 70
     3
  9
$DIMALTF
 40
0.0393700787
  9
$DIMLFAC
 40
1.0
  9
$DIMTOFL
 70
     1
  9
$DIMTVP
 40
0.0
  9
$DIMTIX
 70
     0
  9
$DIMSOXD
 70
     0
  9
$DIMSAH
 70
     0
  9
$DIMBLK1
  1

  9
$DIMBLK2
  1

  9
$DIMSTYLE
  2
ISO-25
  9
$DIMCLRD
 70
     0
  9
$DIMCLRE
 70
     0
  9
$DIMCLRT
 70
     0
  9
$DIMTFAC
 40
1.0
  9
$DIMGAP
 40
1.524
  9
$DIMJUST
 70
     0
  9
$DIMSD1
 70
     0
  9
$DIMSD2
 70
     0
  9
$DIMTOLJ
 70
     0
  9
$DIMTZIN
 70
     0
  9
$DIMALTZ
 70
     0
  9
$DIMALTTZ
 70
     0
  9
$DIMUPT
 70
     0
  9
$DIMDEC
 70
     2
  9
$DIMTDEC
 70
     2
  9
$DIMALTU
 70
     2
  9
$DIMALTTD
 70
     3
  9
$DIMTXSTY
  7
Standard
  9
$DIMAUNIT
 70
     0
  9
$DIMADEC
 70
     2
  9
$DIMALTRND
 40
0.0
  9
$DIMAZIN
 70
     0
  9
$DIMDSEP
 70
    44
  9
$DIMATFIT
 70
     3
  9
$DIMFRAC
 70
     0
  9
$DIMLDRBLK
  1

  9
$DIMLUNIT
 70
     2
  9
$DIMLWD
 70
    -2
  9
$DIMLWE
 70
    -2
  9
$DIMTMOVE
 70
     0
  9
$LUNITS
 70
     2
  9
$LUPREC
 70
     2
  9
$SKETCHINC
 40
1.0
  9
$FILLETRAD
 40
10.0
  9
$AUNITS
 70
     0
  9
$AUPREC
 70
     2
  9
$MENU
  1
.
  9
$ELEVATION
 40
0.0
  9
$PELEVATION
 40
0.0
  9
$THICKNESS
 40
0.0
  9
$LIMCHECK
 70
     0
  9
$CHAMFERA
 40
0.0
  9
$CHAMFERB
 40
0.0
  9
$CHAMFERC
 40
0.0
  9
$CHAMFERD
 40
0.0
  9
$SKPOLY
 70
     0
  9
$TDCREATE
 40
2459935.70054662
  9
$TDUCREATE
 40
2459935.57554662
  9
$TDUPDATE
 40
2459935.700546794
  9
$TDUUPDATE
 40
2459935.575546794
  9
$TDINDWG
 40
0.0000000116
  9
$TDUSRTIMER
 40
0.0000000116
  9
$USRTIMER
 70
     1
  9
$ANGBASE
 50
0.0
  9
$ANGDIR
 70
     0
  9
$PDMODE
 70
     0
  9
$PDSIZE
 40
-1.0
  9
$PLINEWID
 40
0.0
  9
$SPLFRAME
 70
     0
  9
$SPLINETYPE
 70
     6
  9
$SPLINESEGS
 70
     8
  9
$HANDSEED
  5
D2
  9
$SURFTAB1
 70
     6
  9
$SURFTAB2
 70
     6
  9
$SURFTYPE
 70
     6
  9
$SURFU
 70
     6
  9
$SURFV
 70
     6
  9
$UCSBASE
  2

  9
$UCSNAME
  2

  9
$UCSORG
 10
0.0
 20
0.0
 30
0.0
  9
$UCSXDIR
 10
1.0
 20
0.0
 30
0.0
  9
$UCSYDIR
 10
0.0
 20
1.0
 30
0.0
  9
$UCSORTHOREF
  2

  9
$UCSORTHOVIEW
 70
     0
  9
$UCSORGTOP
 10
0.0
 20
0.0
 30
0.0
  9
$UCSORGBOTTOM
 10
0.0
 20
0.0
 30
0.0
  9
$UCSORGLEFT
 10
0.0
 20
0.0
 30
0.0
  9
$UCSORGRIGHT
 10
0.0
 20
0.0
 30
0.0
  9
$UCSORGFRONT
 10
0.0
 20
0.0
 30
0.0
  9
$UCSORGBACK
 10
0.0
 20
0.0
 30
0.0
  9
$PUCSBASE
  2

  9
$PUCSNAME
  2

  9
$PUCSORG
 10
0.0
 20
0.0
 30
0.0
  9
$PUCSXDIR
 10
1.0
 20
0.0
 30
0.0
  9
$PUCSYDIR
 10
0.0
 20
1.0
 30
0.0
  9
$PUCSORTHOREF
  2

  9
$PUCSORTHOVIEW
 70
     0
  9
$PUCSORGTOP
 10
0.0
 20
0.0
 30
0.0
  9
$PUCSORGBOTTOM
 10
0.0
 20
0.0
 30
0.0
  9
$PUCSORGLEFT
 10
0.0
 20
0.0
 30
0.0
  9
$PUCSORGRIGHT
 10
0.0
 20
0.0
 30
0.0
  9
$PUCSORGFRONT
 10
0.0
 20
0.0
 30
0.0
  9
$PUCSORGBACK
 10
0.0
 20
0.0
 30
0.0
  9
$USERI1
 70
     0
  9
$USERI2
 70
     0
  9
$USERI3
 70
     0
  9
$USERI4
 70
     0
  9
$USERI5
 70
     0
  9
$USERR1
 40
0.0
  9
$USERR2
 40
0.0
  9
$USERR3
 40
0.0
  9
$USERR4
 40
0.0
  9
$USERR5
 40
0.0
  9
$WORLDVIEW
 70
     1
  9
$SHADEDGE
 70
     3
  9
$SHADEDIF
 70
    70
  9
$TILEMODE
 70
     1
  9
$MAXACTVP
 70
    64
  9
$PINSBASE
 10
0.0
 20
0.0
 30
0.0
  9
$PLIMCHECK
 70
     0
  9
$PEXTMIN
 10
1.0000000000E+20
 20
1.0000000000E+20
 30
1.0000000000E+20
  9
$PEXTMAX
 10
-1.0000000000E+20
 20
-1.0000000000E+20
 30
-1.0000000000E+20
  9
$PLIMMIN
 10
0.0
 20
0.0
  9
$PLIMMAX
 10
420.0
 20
297.0
  9
$UNITMODE
 70
     0
  9
$VISRETAIN
 70
     1
  9
$PLINEGEN
 70
     0
  9
$PSLTSCALE
 70
     1
  9
$TREEDEPTH
 70
  3020
  9
$CMLSTYLE
  2
Standard
  9
$CMLJUST
 70
     0
  9
$CMLSCALE
 40
20.0
  9
$PROXYGRAPHICS
 70
     1
  9
$MEASUREMENT
 70
     1
  9
$CELWEIGHT
370
    -1
  9
$ENDCAPS
280
     0
  9
$JOINSTYLE
280
     0
  9
$LWDISPLAY
290
     1
  9
$INSUNITS
 70
     4
  9
$HYPERLINKBASE
  1

  9
$STYLESHEET
  1

  9
$XEDIT
290
     1
  9
$CEPSNTYPE
380
     0
  9
$PSTYLEMODE
290
     1
  9
$FINGERPRINTGUID
  2
{5febc88e-9707-494b-a31a-22e704245b3c}
  9
$VERSIONGUID
  2
{FAEB1C32-E019-11D5-929B-00C0DF256EC4}
  9
$EXTNAMES
290
     1
  9
$PSVPSCALE
 40
0.0
  9
$OLESTARTUP
290
     0
  0
ENDSEC
  0
SECTION
  2
CLASSES
  0
CLASS
  1
ACDBDICTIONARYWDFLT
  2
AcDbDictionaryWithDefault
  3
ObjectDBX Classes
 90
        0
280
     0
281
     0
  0
CLASS
  1
VISUALSTYLE
  2
AcDbVisualStyle
  3
ObjectDBX Classes
 90
     4095
280
     0
281
     0
  0
CLASS
  1
MATERIAL
  2
AcDbMaterial
  3
ObjectDBX Classes
 90
     1153
280
     0
281
     0
  0
CLASS
  1
SCALE
  2
AcDbScale
  3
ObjectDBX Classes
 90
     1153
280
     0
281
     0
  0
CLASS
  1
TABLESTYLE
  2
AcDbTableStyle
  3
ObjectDBX Classes
 90
     4095
280
     0
281
     0
  0
CLASS
  1
MLEADERSTYLE
  2
AcDbMLeaderStyle
  3
ACDB_MLEADERSTYLE_CLASS
 90
     4095
280
     0
281
     0
  0
CLASS
  1
SUN
  2
AcDbSun
  3
SCENEOE
 90
     1153
280
     0
281
     0
  0
CLASS
  1
ACDBPLACEHOLDER
  2
AcDbPlaceHolder
  3
ObjectDBX Classes
 90
        0
280
     0
281
     0
  0
CLASS
  1
LAYOUT
  2
AcDbLayout
  3
ObjectDBX Classes
 90
        0
280
     0
281
     0
  0
ENDSEC
  0
SECTION
  2
TABLES
  0
TABLE
  2
VPORT
  5
8
330
0
100
AcDbSymbolTable
 70
     1
  0
VPORT
  5
29
330
8
100
AcDbSymbolTableRecord
100
AcDbViewportTableRecord
  2
*Active
 70
     0
 10
0.0
 20
0.0
 11
1.0
 21
1.0
 12
139.7
 22
107.95
 13
0.0
 23
0.0
 14
10.0
 24
10.0
 15
10.0
 25
10.0
 16
0.0
 26
0.0
 36
1.0
 17
0.0
 27
0.0
 37
0.0
 40
215.9
 41
1.2941176471
 42
50.0
 43
0.0
 44
0.0
 50
0.0
 51
0.0
 71
     0
 72
  2000
 73
     1
 74
     3
 75
     0
 76
     0
 77
     0
 78
     0
281
     0
 65
     1
110
0.0
120
0.0
130
0.0
111
1.0
121
0.0
131
0.0
112
0.0
122
1.0
132
0.0
 79
     0
146
0.0
  0
ENDTAB
  0
TABLE
  2
LTYPE
  5
5
330
0
100
AcDbSymbolTable
 70
     6
  0
LTYPE
  5
14
330
5
100
AcDbSymbolTableRecord
100
AcDbLinetypeTableRecord
  2
ByBlock
 70
     0
  3

 72
    65
 73
     0
 40
0.0
  0
LTYPE
  5
15
330
5
100
AcDbSymbolTableRecord
100
AcDbLinetypeTableRecord
  2
ByLayer
 70
     0
  3

 72
    65
 73
     0
 40
0.0
  0
LTYPE
  5
16
330
5
100
AcDbSymbolTableRecord
100
AcDbLinetypeTableRecord
  2
Continuous
 70
     0
  3
Solid line
 72
    65
 73
     0
 40
0.0
  0
LTYPE
  5
6E
330
5
100
AcDbSymbolTableRecord
100
AcDbLinetypeTableRecord
  2
HIDDEN
 70
     0
  3
Hidden __ __ __ __ __ __ __ __ __ __ __ __ __ __
 72
    65
 73
     2
 40
1.905
 49
1.27
 74
     0
 49
-0.635
 74
     0
  0
LTYPE
  5
6F
330
5
100
AcDbSymbolTableRecord
100
AcDbLinetypeTableRecord
  2
PHANTOM
 70
     0
  3
Phantom ______  __  __  ______  __  __  ______
 72
    65
 73
     6
 40
12.7
 49
6.35
 74
     0
 49
-1.27
 74
     0
 49
1.27
 74
     0
 49
-1.27
 74
     0
 49
1.27
 74
     0
 49
-1.27
 74
     0
  0
LTYPE
  5
70
330
5
100
AcDbSymbolTableRecord
100
AcDbLinetypeTableRecord
  2
CENTER
 70
     0
  3
Center ____ _ ____ _ ____ _ ____ _ ____ _ ____
 72
    65
 73
     4
 40
10.16
 49
6.35
 74
     0
 49
-1.27
 74
     0
 49
1.27
 74
     0
 49
-1.27
 74
     0
  0
LTYPE
  5
71
330
5
100
AcDbSymbolTableRecord
100
AcDbLinetypeTableRecord
  2
CENTERX2
 70
     0
  3
Center (2x) ________  __  ________  __  _____
 72
    65
 73
     4
 40
20.32
 49
12.7
 74
     0
 49
-2.54
 74
     0
 49
2.54
 74
     0
 49
-2.54
 74
     0
  0
LTYPE
  5
72
330
5
100
AcDbSymbolTableRecord
100
AcDbLinetypeTableRecord
  2
DOT2
 70
     0
  3
Dot (.5x) ........................................
 72
    65
 73
     2
 40
0.635
 49
0.0
 74
     0
 49
-0.635
 74
     0
  0
ENDTAB
  0
TABLE
  2
LAYER
  5
2
330
0
100
AcDbSymbolTable
 70
    17
  0
LAYER
  5
10
330
2
100
AcDbSymbolTableRecord
100
AcDbLayerTableRecord
  2
0
 70
     0
 62
     7
  6
Continuous
370
    -3
390
F
  0
LAYER
  5
73
330
2
100
AcDbSymbolTableRecord
100
AcDbLayerTableRecord
  2
FORMAT
 70
     0
 62
     7
  6
Continuous
370
    -3
390
F
  0
LAYER
  5
74
330
2
100
AcDbSymbolTableRecord
100
AcDbLayerTableRecord
  2
YARDIMCI_GEOMETRI
 70
     0
 62
    -6
  6
Continuous
290
     0
370
    -3
390
F
  0
LAYER
  5
75
330
2
100
AcDbSymbolTableRecord
100
AcDbLayerTableRecord
  2
SAYFA_CERCEVESI
 70
     0
 62
     7
  6
Continuous
370
    25
390
F
  0
LAYER
  5
76
330
2
100
AcDbSymbolTableRecord
100
AcDbLayerTableRecord
  2
ANTET
 70
     0
 62
     7
  6
Continuous
370
    -3
390
F
  0
LAYER
  5
77
330
2
100
AcDbSymbolTableRecord
100
AcDbLayerTableRecord
  2
OLCU
 70
     0
 62
   150
  6
Continuous
370
    -3
390
F
  0
LAYER
  5
78
330
2
100
AcDbSymbolTableRecord
100
AcDbLayerTableRecord
  2
METIN
 70
     0
 62
    96
  6
Continuous
370
    -3
390
F
  0
LAYER
  5
79
330
2
100
AcDbSymbolTableRecord
100
AcDbLayerTableRecord
  2
BALON
 70
     0
 62
     5
  6
Continuous
370
    -3
390
F
  0
LAYER
  5
7A
330
2
100
AcDbSymbolTableRecord
100
AcDbLayerTableRecord
  2
VURGU
 70
     0
 62
     7
  6
Continuous
370
    -3
390
F
  0
LAYER
  5
7B
330
2
100
AcDbSymbolTableRecord
100
AcDbLayerTableRecord
  2
SILIK
 70
     0
 62
     7
  6
Continuous
370
    -3
390
F
  0
LAYER
  5
7C
330
2
100
AcDbSymbolTableRecord
100
AcDbLayerTableRecord
  2
MODEL
 70
     0
 62
     7
  6
Continuous
370
    -3
390
F
  0
LAYER
  5
7D
330
2
100
AcDbSymbolTableRecord
100
AcDbLayerTableRecord
  2
DETAYLANDıRMA
 70
     0
 62
   190
  6
Continuous
370
    -3
390
F
  0
LAYER
  5
7E
330
2
100
AcDbSymbolTableRecord
100
AcDbLayerTableRecord
  2
TOLERANS
 70
     0
 62
   230
  6
Continuous
370
    -3
390
F
  0
LAYER
  5
7F
330
2
100
AcDbSymbolTableRecord
100
AcDbLayerTableRecord
  2
MERKEZ_CIZGILERI
 70
     0
 62
    30
  6
Continuous
370
    -3
390
F
  0
LAYER
  5
80
330
2
100
AcDbSymbolTableRecord
100
AcDbLayerTableRecord
  2
KESIT-DETAY_CIZGILERI
 70
     0
 62
     7
  6
Continuous
370
    -3
390
F
  0
LAYER
  5
81
330
2
100
AcDbSymbolTableRecord
100
AcDbLayerTableRecord
  2
\U+041E\U+0421\U+0415\U+0412\U+042B\U+0415
 70
     0
 62
     7
  6
Continuous
370
    -3
390
F
  0
LAYER
  5
82
330
2
100
AcDbSymbolTableRecord
100
AcDbLayerTableRecord
  2
\U+0412\U+041E\U+0414\U+042F\U+041D\U+042B\U+0415_\U+0417\U+041D\U+0410\U+041A\U+0418
 70
     0
 62
    11
  6
Continuous
370
    -3
390
F
  0
ENDTAB
  0
TABLE
  2
STYLE
  5
3
330
0
100
AcDbSymbolTable
 70
     1
  0
STYLE
  5
11
330
3
100
AcDbSymbolTableRecord
100
AcDbTextStyleTableRecord
  2
Standard
 70
     0
 40
0.0
 41
1.0
 50
0.0
 71
     0
 42
3.5
  3
txt
  4

  0
ENDTAB
  0
TABLE
  2
VIEW
  5
6
330
0
100
AcDbSymbolTable
 70
     0
  0
ENDTAB
  0
TABLE
  2
UCS
  5
7
330
0
100
AcDbSymbolTable
 70
     0
  0
ENDTAB
  0
TABLE
  2
APPID
  5
9
330
0
100
AcDbSymbolTable
 70
     1
  0
APPID
  5
12
330
9
100
AcDbSymbolTableRecord
100
AcDbRegAppTableRecord
  2
ACAD
 70
     0
  0
ENDTAB
  0
TABLE
  2
DIMSTYLE
  5
A
330
0
100
AcDbSymbolTable
 70
     1
100
AcDbDimStyleTable
  0
DIMSTYLE
105
27
330
A
100
AcDbSymbolTableRecord
100
AcDbDimStyleTableRecord
  2
ISO-25
 70
     0
 41
2.5
 42
0.625
 43
3.75
 44
1.25
 73
     0
 74
     0
 77
     1
 78
     8
140
2.5
141
2.5
143
0.0393700787
147
0.625
171
     3
172
     1
178
     0
271
     2
272
     2
274
     3
278
    44
283
     0
284
     8
340
11
  0
ENDTAB
  0
TABLE
  2
BLOCK_RECORD
  5
1
330
0
100
AcDbSymbolTable
 70
     3
  0
BLOCK_RECORD
  5
1F
330
1
100
AcDbSymbolTableRecord
100
AcDbBlockTableRecord
  2
*Model_Space
340
22
  0
BLOCK_RECORD
  5
1B
330
1
100
AcDbSymbolTableRecord
100
AcDbBlockTableRecord
  2
*Paper_Space
340
1E
  0
BLOCK_RECORD
  5
23
330
1
100
AcDbSymbolTableRecord
100
AcDbBlockTableRecord
  2
*Paper_Space0
340
26
  0
BLOCK_RECORD
  5
88
330
1
100
AcDbSymbolTableRecord
100
AcDbBlockTableRecord
  2
SW_CENTERMARKSYMBOL_0
340
0
102
{BLKREFS
331
93
102
}
  0
BLOCK_RECORD
  5
BB
330
1
100
AcDbSymbolTableRecord
100
AcDbBlockTableRecord
  2
SW_CENTERMARKSYMBOL_1
340
0
102
{BLKREFS
331
C6
102
}
  0
ENDTAB
  0
ENDSEC
  0
SECTION
  2
BLOCKS
  0
BLOCK
  5
20
330
1F
100
AcDbEntity
  8
0
100
AcDbBlockBegin
  2
*Model_Space
 70
     0
 10
0.0
 20
0.0
 30
0.0
  3
*Model_Space
  1

  0
ENDBLK
  5
21
330
1F
100
AcDbEntity
  8
0
100
AcDbBlockEnd
  0
BLOCK
  5
1C
330
1B
100
AcDbEntity
 67
     1
  8
0
100
AcDbBlockBegin
  2
*Paper_Space
 70
     0
 10
0.0
 20
0.0
 30
0.0
  3
*Paper_Space
  1

  0
ENDBLK
  5
1D
330
1B
100
AcDbEntity
 67
     1
  8
0
100
AcDbBlockEnd
  0
BLOCK
  5
24
330
23
100
AcDbEntity
  8
0
100
AcDbBlockBegin
  2
*Paper_Space0
 70
     0
 10
0.0
 20
0.0
 30
0.0
  3
*Paper_Space0
  1

  0
ENDBLK
  5
25
330
23
100
AcDbEntity
  8
0
100
AcDbBlockEnd
  0
BLOCK
  5
89
330
88
100
AcDbEntity
  8
0
100
AcDbBlockBegin
  2
SW_CENTERMARKSYMBOL_0
 70
     0
 10
0.0
 20
0.0
 30
0.0
  3
SW_CENTERMARKSYMBOL_0
  1

  0
LINE
  5
8B
330
88
100
AcDbEntity
  8
FORMAT
 62
     0
100
AcDbLine
 10
0.0
 20
0.0
 30
0.0
 11
0.0
 21
2.5
 31
0.0
  0
LINE
  5
8C
330
88
100
AcDbEntity
  8
FORMAT
 62
     0
100
AcDbLine
 10
0.0
 20
0.0
 30
0.0
 11
-2.5
 21
0.0
 31
0.0
  0
LINE
  5
8D
330
88
100
AcDbEntity
  8
FORMAT
 62
     0
100
AcDbLine
 10
0.0
 20
0.0
 30
0.0
 11
0.0
 21
-2.5
 31
0.0
  0
LINE
  5
8E
330
88
100
AcDbEntity
  8
FORMAT
 62
     0
100
AcDbLine
 10
0.0
 20
0.0
 30
0.0
 11
2.5
 21
0.0
 31
0.0
  0
LINE
  5
8F
330
88
100
AcDbEntity
  8
FORMAT
 62
     0
100
AcDbLine
 10
0.0
 20
5.0
 30
0.0
 11
0.0
 21
92.5
 31
0.0
  0
LINE
  5
90
330
88
100
AcDbEntity
  8
FORMAT
 62
     0
100
AcDbLine
 10
-5.0
 20
0.0
 30
0.0
 11
-92.5
 21
0.0
 31
0.0
  0
LINE
  5
91
330
88
100
AcDbEntity
  8
FORMAT
 62
     0
100
AcDbLine
 10
0.0
 20
-5.0
 30
0.0
 11
0.0
 21
-92.5
 31
0.0
  0
LINE
  5
92
330
88
100
AcDbEntity
  8
FORMAT
 62
     0
100
AcDbLine
 10
5.0
 20
0.0
 30
0.0
 11
92.5
 21
0.0
 31
0.0
  0
ENDBLK
  5
8A
330
88
100
AcDbEntity
  8
0
100
AcDbBlockEnd
  0
BLOCK
  5
BC
330
BB
100
AcDbEntity
  8
0
100
AcDbBlockBegin
  2
SW_CENTERMARKSYMBOL_1
 70
     0
 10
0.0
 20
0.0
 30
0.0
  3
SW_CENTERMARKSYMBOL_1
  1

  0
LINE
  5
BE
330
BB
100
AcDbEntity
  8
FORMAT
 62
     0
100
AcDbLine
 10
0.0
 20
0.0
 30
0.0
 11
0.0
 21
2.5
 31
0.0
  0
LINE
  5
BF
330
BB
100
AcDbEntity
  8
FORMAT
 62
     0
100
AcDbLine
 10
0.0
 20
0.0
 30
0.0
 11
-2.5
 21
0.0
 31
0.0
  0
LINE
  5
C0
330
BB
100
AcDbEntity
  8
FORMAT
 62
     0
100
AcDbLine
 10
0.0
 20
0.0
 30
0.0
 11
0.0
 21
-2.5
 31
0.0
  0
LINE
  5
C1
330
BB
100
AcDbEntity
  8
FORMAT
 62
     0
100
AcDbLine
 10
0.0
 20
0.0
 30
0.0
 11
2.5
 21
0.0
 31
0.0
  0
LINE
  5
C2
330
BB
100
AcDbEntity
  8
FORMAT
 62
     0
100
AcDbLine
 10
0.0
 20
5.0
 30
0.0
 11
0.0
 21
92.5
 31
0.0
  0
LINE
  5
C3
330
BB
100
AcDbEntity
  8
FORMAT
 62
     0
100
AcDbLine
 10
-5.0
 20
0.0
 30
0.0
 11
-92.5
 21
0.0
 31
0.0
  0
LINE
  5
C4
330
BB
100
AcDbEntity
  8
FORMAT
 62
     0
100
AcDbLine
 10
0.0
 20
-5.0
 30
0.0
 11
0.0
 21
-92.5
 31
0.0
  0
LINE
  5
C5
330
BB
100
AcDbEntity
  8
FORMAT
 62
     0
100
AcDbLine
 10
5.0
 20
0.0
 30
0.0
 11
92.5
 21
0.0
 31
0.0
  0
ENDBLK
  5
BD
330
BB
100
AcDbEntity
  8
0
100
AcDbBlockEnd
  0
ENDSEC
  0
SECTION
  2
ENTITIES
  0
LINE
  5
83
330
1F
100
AcDbEntity
  8
0
  6
Continuous
 62
     7
370
    25
100
AcDbLine
 10
66.818448808
 20
16.5497089117
 30
0.0
 11
291.818448808
 21
16.5497089117
 31
0.0
  0
LINE
  5
84
330
1F
100
AcDbEntity
  8
0
  6
Continuous
 62
     7
370
    25
100
AcDbLine
 10
291.818448808
 20
196.5497089117
 30
0.0
 11
66.818448808
 21
196.5497089117
 31
0.0
  0
CIRCLE
  5
85
330
1F
100
AcDbEntity
  8
0
  6
Continuous
 62
     7
370
    25
100
AcDbCircle
 10
66.818448808
 20
106.5497089117
 30
0.0
 40
79.29999999999998
  0
CIRCLE
  5
86
330
1F
100
AcDbEntity
  8
0
  6
Continuous
 62
     7
370
    25
100
AcDbCircle
 10
66.818448808
 20
106.5497089117
 30
0.0
 40
90.00000000000003
  0
LINE
  5
87
330
1F
100
AcDbEntity
  8
0
  6
Continuous
 62
     7
370
    25
100
AcDbLine
 10
291.818448808
 20
196.5497089117
 30
0.0
 11
291.818448808
 21
16.5497089117
 31
0.0
  0
INSERT
  5
93
330
1F
100
AcDbEntity
  8
FORMAT
100
AcDbBlockReference
  2
SW_CENTERMARKSYMBOL_0
 10
66.818448808
 20
106.5497089117
 30
0.0
  0
LINE
  5
94
330
1F
100
AcDbEntity
  8
0
  6
Continuous
 62
     7
370
    25
100
AcDbLine
 10
156.818448808
 20
634.0544251334
 30
0.0
 11
156.818448808
 21
773.0544251334
 31
0.0
  0
LINE
  5
95
330
1F
100
AcDbEntity
  8
0
  6
Continuous
 62
     7
370
    25
100
AcDbLine
 10
156.818448808
 20
315.0544251334
 30
0.0
 11
156.818448808
 21
454.0544251334
 31
0.0
  0
LINE
  5
96
330
1F
100
AcDbEntity
  8
0
  6
Continuous
 62
     7
370
    25
100
AcDbLine
 10
-23.181551192
 20
773.0544251334
 30
0.0
 11
-23.181551192
 21
315.0544251334
 31
0.0
  0
LINE
  5
97
330
1F
100
AcDbEntity
  8
0
  6
Continuous
 62
     7
370
    25
100
AcDbLine
 10
156.818448808
 20
454.0544251334
 30
0.0
 11
291.818448808
 21
454.0544251334
 31
0.0
  0
LINE
  5
98
330
1F
100
AcDbEntity
  8
0
  6
Continuous
 62
     7
370
    25
100
AcDbLine
 10
291.818448808
 20
634.0544251334
 30
0.0
 11
156.818448808
 21
634.0544251334
 31
0.0
  0
LINE
  5
99
330
1F
100
AcDbEntity
  8
0
  6
Continuous
 62
     7
370
    25
100
AcDbLine
 10
156.818448808
 20
634.0544251334
 30
0.0
 11
66.818448808
 21
544.0544251334
 31
0.0
  0
LINE
  5
9A
330
1F
100
AcDbEntity
  8
0
  6
Continuous
 62
     7
370
    25
100
AcDbLine
 10
66.818448808
 20
544.0544251334
 30
0.0
 11
156.818448808
 21
454.0544251334
 31
0.0
  0
LINE
  5
9B
330
1F
100
AcDbEntity
  8
0
  6
Continuous
 62
     7
370
    25
100
AcDbLine
 10
-23.181551192
 20
773.0544251334
 30
0.0
 11
156.818448808
 21
773.0544251334
 31
0.0
  0
LINE
  5
9C
330
1F
100
AcDbEntity
  8
0
  6
Continuous
 62
     7
370
    25
100
AcDbLine
 10
-23.181551192
 20
315.0544251334
 30
0.0
 11
156.818448808
 21
315.0544251334
 31
0.0
  0
LINE
  5
9D
330
1F
100
AcDbEntity
  8
0
  6
Continuous
 62
     7
370
    25
100
AcDbLine
 10
291.818448808
 20
634.0544251334
 30
0.0
 11
291.818448808
 21
454.0544251334
 31
0.0
  0
LINE
  5
9E
330
1F
100
AcDbEntity
  8
0
  6
Continuous
 62
     7
370
    25
100
AcDbLine
 10
648.4198973659
 20
16.5497089117
 30
0.0
 11
877.4198973659
 21
16.5497089117
 31
0.0
  0
LINE
  5
9F
330
1F
100
AcDbEntity
  8
0
  6
Continuous
 62
     7
370
    25
100
AcDbLine
 10
419.4198973659
 20
16.5497089117
 30
0.0
 11
648.4198973659
 21
16.5497089117
 31
0.0
  0
LINE
  5
A0
330
1F
100
AcDbEntity
  8
0
  6
Continuous
 62
     7
370
    25
100
AcDbLine
 10
648.4198973659
 20
196.5497089117
 30
0.0
 11
419.4198973659
 21
196.5497089117
 31
0.0
  0
LINE
  5
A1
330
1F
100
AcDbEntity
  8
0
  6
Continuous
 62
     7
370
    25
100
AcDbLine
 10
877.4198973659
 20
196.5497089117
 30
0.0
 11
648.4198973659
 21
196.5497089117
 31
0.0
  0
LINE
  5
A2
330
1F
100
AcDbEntity
  8
0
  6
Continuous
 62
     7
370
    25
100
AcDbLine
 10
877.4198973659
 20
196.5497089117
 30
0.0
 11
877.4198973659
 21
16.5497089117
 31
0.0
  0
LINE
  5
A3
330
1F
100
AcDbEntity
  8
0
  6
Continuous
 62
     7
370
    25
100
AcDbLine
 10
419.4198973659
 20
196.5497089117
 30
0.0
 11
419.4198973659
 21
16.5497089117
 31
0.0
  0
LINE
  5
A4
330
1F
100
AcDbEntity
  8
0
  6
Continuous
 62
     7
370
    25
100
AcDbLine
 10
627.7874377527
 20
-196.8561383105
 30
0.0
 11
510.8563278296
 21
-129.3532453913
 31
0.0
  0
LINE
  5
A5
330
1F
100
AcDbEntity
  8
0
  6
Continuous
 62
     7
370
    25
100
AcDbLine
 10
834.711233613
 20
-316.3107029987
 30
0.0
 11
807.8020670671
 21
-300.7763718093
 31
0.0
  0
LINE
  5
A6
330
1F
100
AcDbEntity
  8
0
  6
Continuous
 62
     7
370
    25
100
AcDbLine
 10
420.8636418924
 20
-285.2420406199
 30
0.0
 11
744.7185476758
 21
-472.1994982273
 31
0.0
  0
LINE
  5
A7
330
1F
100
AcDbEntity
  8
0
  6
Continuous
 62
     7
370
    25
100
AcDbLine
 10
717.78012369
 20
-352.744933539
 30
0.0
 11
831.8828064883
 21
-286.8748568435
 31
0.0
  0
LINE
  5
A8
330
1F
100
AcDbEntity
  8
0
  6
Continuous
 62
     7
370
    25
100
AcDbLine
 10
741.8901205511
 20
-130.986061615
 30
0.0
 11
627.7874377527
 21
-196.8561383105
 31
0.0
  0
LINE
  5
A9
330
1F
100
AcDbEntity
  8
0
  6
Continuous
 62
     7
370
    25
100
AcDbLine
 10
627.7874377527
 20
-196.8561383105
 30
0.0
 11
627.7874377527
 21
-374.265044879
 31
0.0
  0
ELLIPSE
  5
AA
330
1F
100
AcDbEntity
  8
0
  6
Continuous
 62
     7
370
    25
100
AcDbEllipse
 10
627.7874377527
 20
-300.7763718093
 30
0.0
 11
127.2792206135786
 21
1.705302565824240E-13
 31
0.0
210
0.0
220
0.0
230
1.0
 40
0.5773815452
 41
4.712388980384697
 42
5.49770587972005
  0
LWPOLYLINE
  5
AB
330
1F
100
AcDbEntity
  8
0
  6
Continuous
 62
     7
370
    25
100
AcDbPolyline
 90
      101
 70
   128
 43
0.0
 10
529.4995951678
 20
-170.5592779736
 10
529.3740169339
 20
-166.0173807833
 10
528.9977778323
 20
-161.6383979289
 10
528.3723627067
 20
-157.4396112551
 10
527.5002397849
 20
-153.4375914546
 10
526.3848509377
 20
-149.6481326713
 10
525.0305980953
 20
-146.0861901677
 10
523.442825875
 20
-142.7658213036
 10
521.6278004882
 20
-139.700130058
 10
519.5926850111
 20
-136.9012153136
 10
517.3455111146
 20
-134.3801231082
 10
514.8951473675
 20
-132.1468030411
 10
512.251264236
 20
-130.2100690061
 10
509.4242959189
 20
-128.5775644077
 10
506.4253991688
 20
-127.2557319958
 10
503.266409261
 20
-126.249788439
 10
499.9597932854
 20
-125.5637037369
 10
496.5186009447
 20
-125.2001855524
 10
492.9564130529
 20
-125.1606685257
 10
489.2872879382
 20
-125.4453086125
 10
485.5257059612
 20
-126.0529824683
 10
481.6865123674
 20
-126.9812918822
 10
477.7848587
 20
-128.2265732408
 10
473.8361430035
 20
-129.7839119877
 10
469.8559490548
 20
-131.6471620183
 10
465.859984861
 20
-133.8089699359
 10
461.8640206672
 20
-136.2608040723
 10
457.8838267185
 20
-138.9929881584
 10
453.935111022
 20
-141.9947395117
 10
450.0334573546
 20
-145.254211591
 10
446.1942637608
 20
-148.7585407492
 10
442.4326817838
 20
-152.493897
 10
438.7635566691
 20
-156.4455385989
 10
435.2013687773
 20
-160.5978702217
 10
431.7601764366
 20
-164.9345045126
 10
428.453560461
 20
-169.4383267573
 10
425.2945705532
 20
-174.0915624269
 10
422.295673803
 20
-178.8758473262
 10
419.468705486
 20
-183.7723000683
 10
416.8248223545
 20
-188.7615965913
 10
414.3744586074
 20
-193.8240464211
 10
412.1272847109
 20
-198.9396703812
 10
410.0921692338
 20
-204.0882794409
 10
408.277143847
 20
-209.2495543923
 10
406.6893716266
 20
-214.4031260412
 10
405.3351187842
 20
-219.5286555947
 10
404.219729937
 20
-224.6059149294
 10
403.3476070153
 20
-229.6148664222
 10
402.7221918897
 20
-234.53574203
 10
402.3459527881
 20
-239.3491213048
 10
402.2203745542
 20
-244.0360080376
 10
402.3459527881
 20
-248.5779052279
 10
402.7221918897
 20
-252.9568880823
 10
403.3476070153
 20
-257.1556747561
 10
404.219729937
 20
-261.1576945566
 10
405.3351187842
 20
-264.9471533399
 10
406.6893716266
 20
-268.5090958435
 10
408.277143847
 20
-271.8294647076
 10
410.0921692338
 20
-274.8951559533
 10
412.1272847109
 20
-277.6940706976
 10
414.3744586074
 20
-280.215162903
 10
416.8248223545
 20
-282.4484829701
 10
419.468705486
 20
-284.3852170051
 10
422.295673803
 20
-286.0177216035
 10
425.2945705532
 20
-287.3395540154
 10
428.453560461
 20
-288.3454975722
 10
431.7601764366
 20
-289.0315822743
 10
435.2013687773
 20
-289.3951004588
 10
438.7635566691
 20
-289.4346174855
 10
442.4326817838
 20
-289.1499773987
 10
446.1942637608
 20
-288.5423035429
 10
450.0334573546
 20
-287.6139941291
 10
453.935111022
 20
-286.3687127704
 10
457.8838267185
 20
-284.8113740235
 10
461.8640206672
 20
-282.9481239929
 10
465.859984861
 20
-280.7863160753
 10
469.8559490548
 20
-278.3344819389
 10
473.8361430035
 20
-275.6022978528
 10
477.7848587
 20
-272.6005464995
 10
481.6865123674
 20
-269.3410744202
 10
485.5257059612
 20
-265.836745262
 10
489.2872879382
 20
-262.1013890112
 10
492.9564130529
 20
-258.1497474123
 10
496.5186009447
 20
-253.9974157895
 10
499.9597932854
 20
-249.6607814986
 10
503.266409261
 20
-245.1569592539
 10
506.4253991688
 20
-240.5037235843
 10
509.4242959189
 20
-235.719438685
 10
512.251264236
 20
-230.8229859429
 10
514.8951473675
 20
-225.8336894199
 10
517.3455111146
 20
-220.7712395901
 10
519.5926850111
 20
-215.65561563
 10
521.6278004882
 20
-210.5070065704
 10
523.442825875
 20
-205.3457316189
 10
525.0305980953
 20
-200.19215997
 10
526.3848509377
 20
-195.0666304165
 10
527.5002397849
 20
-189.9893710818
 10
528.3723627067
 20
-184.980419589
 10
528.9977778323
 20
-180.0595439813
 10
529.3740169339
 20
-175.2461647065
 10
529.4995951678
 20
-170.5592779736
  0
LWPOLYLINE
  5
AC
330
1F
100
AcDbEntity
  8
0
  6
Continuous
 62
     7
370
    25
100
AcDbPolyline
 90
       14
 70
   128
 43
0.0
 10
853.3545009512
 20
-357.516735581
 10
853.2289227174
 20
-352.9748383907
 10
852.8526836157
 20
-348.5958555363
 10
852.2272684901
 20
-344.3970688625
 10
851.3551455684
 20
-340.395049062
 10
850.2397567212
 20
-336.6055902787
 10
848.8855038788
 20
-333.0436477751
 10
847.2977316584
 20
-329.723278911
 10
845.4827062717
 20
-326.6575876654
 10
843.4475907945
 20
-323.858672921
 10
841.200416898
 20
-321.3375807156
 10
838.7500531509
 20
-319.1042606485
 10
836.1061700194
 20
-317.1675266135
 10
834.711233613
 20
-316.3107029987
  0
LWPOLYLINE
  5
AD
330
1F
100
AcDbEntity
  8
0
  6
Continuous
 62
     7
370
    25
100
AcDbPolyline
 90
       39
 70
   128
 43
0.0
 10
744.7185476758
 20
-472.1994982273
 10
746.1505795865
 20
-472.9751792109
 10
749.1494763366
 20
-474.2970116228
 10
752.3084662445
 20
-475.3029551796
 10
755.61508222
 20
-475.9890398817
 10
759.0562745607
 20
-476.3525580662
 10
762.6184624525
 20
-476.3920750929
 10
766.2875875672
 20
-476.1074350061
 10
770.0491695442
 20
-475.4997611503
 10
773.888363138
 20
-474.5714517365
 10
777.7900168054
 20
-473.3261703778
 10
781.7387325019
 20
-471.7688316309
 10
785.7189264506
 20
-469.9055816003
 10
789.7148906444
 20
-467.7437736827
 10
793.7108548382
 20
-465.2919395463
 10
797.6910487869
 20
-462.5597554602
 10
801.6397644834
 20
-459.5580041069
 10
805.5414181508
 20
-456.2985320276
 10
809.3806117446
 20
-452.7942028694
 10
813.1421937216
 20
-449.0588466186
 10
816.8113188363
 20
-445.1072050197
 10
820.3735067281
 20
-440.9548733969
 10
823.8146990688
 20
-436.618239106
 10
827.1213150444
 20
-432.1144168613
 10
830.2803049522
 20
-427.4611811917
 10
833.2792017024
 20
-422.6768962924
 10
836.1061700194
 20
-417.7804435503
 10
838.7500531509
 20
-412.7911470273
 10
841.200416898
 20
-407.7286971975
 10
843.4475907945
 20
-402.6130732374
 10
845.4827062717
 20
-397.4644641778
 10
847.2977316584
 20
-392.3031892263
 10
848.8855038788
 20
-387.1496175774
 10
850.2397567212
 20
-382.0240880239
 10
851.3551455684
 20
-376.9468286892
 10
852.2272684901
 20
-371.9378771964
 10
852.8526836157
 20
-367.0170015887
 10
853.2289227174
 20
-362.2036223139
 10
853.3545009512
 20
-357.516735581
  0
LWPOLYLINE
  5
AE
330
1F
100
AcDbEntity
  8
0
  6
Continuous
 62
     7
370
    25
100
AcDbPolyline
 90
       95
 70
   128
 43
0.0
 10
521.9335526091
 20
-174.9270613718
 10
521.8083335263
 20
-170.6744131367
 10
521.4332355366
 20
-166.5853331367
 10
520.8099339189
 20
-162.6780841955
 10
519.9412124893
 20
-158.9701170356
 10
518.8309511688
 20
-155.4779923383
 10
517.4841086538
 20
-152.2173067803
 10
515.90670027
 20
-149.2026233749
 10
514.1057711062
 20
-146.4474064299
 10
512.0893645492
 20
-143.9639614131
 10
509.8664863601
 20
-141.7633799927
 10
507.4470644526
 20
-139.8554904997
 10
504.8419045522
 20
-138.2488140316
 10
502.0626419354
 20
-136.9505263955
 10
499.1216894639
 20
-135.9664260593
 10
496.0321821451
 20
-135.3009082538
 10
492.8079184689
 20
-134.9569453432
 10
489.4632987795
 20
-134.9360735494
 10
486.0132609604
 20
-135.2383860907
 10
482.4732137179
 20
-135.8625327661
 10
478.8589677624
 20
-136.805725985
 10
475.1866651937
 20
-138.0637532175
 10
471.4727074066
 20
-139.6309958085
 10
467.733681838
 20
-141.5004540723
 10
463.9862878839
 20
-143.6637785543
 10
460.2472623154
 20
-146.1113073223
 10
456.5333045283
 20
-148.8321091187
 10
452.8610019596
 20
-151.8140321822
 10
449.2467560041
 20
-155.0437585204
 10
445.7067087616
 20
-158.5068633916
 10
442.2566709424
 20
-162.1878797287
 10
438.912051253
 20
-166.0703672191
 10
435.6877875768
 20
-170.1369857313
 10
432.5982802581
 20
-174.3695727598
 10
429.6573277865
 20
-178.7492245434
 10
426.8780651698
 20
-183.256380494
 10
424.2729052694
 20
-187.8709105592
 10
421.8534833619
 20
-192.5722051273
 10
419.6306051728
 20
-197.3392670757
 10
417.6141986158
 20
-202.1508055484
 10
415.8132694519
 20
-206.9853310467
 10
414.2358610682
 20
-211.8212514059
 10
412.8890185532
 20
-216.6369682319
 10
411.7787572326
 20
-221.4109733643
 10
410.9100358031
 20
-226.1219449372
 10
410.2867341853
 20
-230.7488426081
 10
409.9116361957
 20
-235.2710015286
 10
409.7864171129
 20
-239.6682246394
 10
409.9116361957
 20
-243.9208728745
 10
410.2867341853
 20
-248.0099528746
 10
410.9100358031
 20
-251.9172018157
 10
411.7787572326
 20
-255.6251689756
 10
412.8890185532
 20
-259.1172936729
 10
414.2358610682
 20
-262.3779792309
 10
415.8132694519
 20
-265.3926626363
 10
417.6141986158
 20
-268.1478795813
 10
419.6306051728
 20
-270.6313245981
 10
421.8534833619
 20
-272.8319060185
 10
424.2729052694
 20
-274.7397955115
 10
426.8780651698
 20
-276.3464719796
 10
429.6573277865
 20
-277.6447596157
 10
432.5982802581
 20
-278.628859952
 10
435.6877875768
 20
-279.2943777574
 10
438.912051253
 20
-279.638340668
 10
442.2566709424
 20
-279.6592124619
 10
445.7067087616
 20
-279.3568999205
 10
449.2467560041
 20
-278.7327532451
 10
452.8610019596
 20
-277.7895600262
 10
456.5333045283
 20
-276.5315327937
 10
460.2472623154
 20
-274.9642902027
 10
463.9862878839
 20
-273.094831939
 10
467.733681838
 20
-270.9315074569
 10
471.4727074066
 20
-268.4839786889
 10
475.1866651937
 20
-265.7631768925
 10
478.8589677624
 20
-262.781253829
 10
482.4732137179
 20
-259.5515274908
 10
486.0132609604
 20
-256.0884226196
 10
489.4632987795
 20
-252.4074062825
 10
492.8079184689
 20
-248.5249187921
 10
496.0321821451
 20
-244.4583002799
 10
499.1216894639
 20
-240.2257132514
 10
502.0626419354
 20
-235.8460614679
 10
504.8419045522
 20
-231.3389055172
 10
507.4470644526
 20
-226.724375452
 10
509.8664863601
 20
-222.0230808839
 10
512.0893645492
 20
-217.2560189355
 10
514.1057711062
 20
-212.4444804628
 10
515.90670027
 20
-207.6099549646
 10
517.4841086538
 20
-202.7740346053
 10
518.8309511688
 20
-197.9583177793
 10
519.9412124893
 20
-193.1843126469
 10
520.8099339189
 20
-188.473341074
 10
521.4332355366
 20
-183.8464434031
 10
521.8083335263
 20
-179.3242844826
 10
521.9335526091
 20
-174.9270613718
  0
LWPOLYLINE
  5
AF
330
1F
100
AcDbEntity
  8
0
  6
Continuous
 62
     7
370
    25
100
AcDbPolyline
 90
      101
 70
   128
 43
0.0
 10
850.5260738265
 20
-245.6688242613
 10
850.4004955926
 20
-240.9819375284
 10
850.024256491
 20
-236.1685582536
 10
849.3988413654
 20
-231.2476826459
 10
848.5267184436
 20
-226.2387311531
 10
847.4113295964
 20
-221.1614718184
 10
846.057076754
 20
-216.0359422648
 10
844.4693045337
 20
-210.8823706159
 10
842.6542791469
 20
-205.7210956645
 10
840.6191636698
 20
-200.5724866049
 10
838.3719897733
 20
-195.4568626448
 10
835.9216260262
 20
-190.3944128149
 10
833.2777428947
 20
-185.4051162919
 10
830.4507745776
 20
-180.5086635498
 10
827.4518778275
 20
-175.7243786506
 10
824.2928879196
 20
-171.0711429809
 10
820.9862719441
 20
-166.5673207363
 10
817.5450796034
 20
-162.2306864454
 10
813.9828917116
 20
-158.0783548225
 10
810.3137665969
 20
-154.1267132237
 10
806.5521846199
 20
-150.3913569729
 10
802.7129910261
 20
-146.8870278147
 10
798.8113373587
 20
-143.6275557353
 10
794.8626216622
 20
-140.625804382
 10
790.8824277135
 20
-137.893620296
 10
786.8864635197
 20
-135.4417861595
 10
782.8904993259
 20
-133.2799782419
 10
778.9103053772
 20
-131.4167282114
 10
774.9615896807
 20
-129.8593894645
 10
771.0599360133
 20
-128.6141081058
 10
767.2207424195
 20
-127.685798692
 10
763.4591604425
 20
-127.0781248361
 10
759.7900353278
 20
-126.7934847493
 10
756.227847436
 20
-126.833001776
 10
752.7866550953
 20
-127.1965199605
 10
749.4800391197
 20
-127.8826046626
 10
746.3210492119
 20
-128.8885482195
 10
743.3221524617
 20
-130.2103806314
 10
740.4951841447
 20
-131.8428852297
 10
737.8513010132
 20
-133.7796192647
 10
735.4009372661
 20
-136.0129393319
 10
733.1537633696
 20
-138.5340315372
 10
731.1186478925
 20
-141.3329462816
 10
729.3036225057
 20
-144.3986375272
 10
727.7158502853
 20
-147.7190063913
 10
726.3615974429
 20
-151.2809488949
 10
725.2462085957
 20
-155.0704076782
 10
724.374085674
 20
-159.0724274787
 10
723.7486705484
 20
-163.2712141525
 10
723.3724314467
 20
-167.650197007
 10
723.2468532129
 20
-172.1920941972
 10
723.3724314467
 20
-176.8789809301
 10
723.7486705484
 20
-181.6923602049
 10
724.374085674
 20
-186.6132358126
 10
725.2462085957
 20
-191.6221873054
 10
726.3615974429
 20
-196.6994466401
 10
727.7158502853
 20
-201.8249761937
 10
729.3036225057
 20
-206.9785478426
 10
731.1186478925
 20
-212.139822794
 10
733.1537633696
 20
-217.2884318536
 10
735.4009372661
 20
-222.4040558137
 10
737.8513010132
 20
-227.4665056436
 10
740.4951841447
 20
-232.4558021666
 10
743.3221524617
 20
-237.3522549087
 10
746.3210492119
 20
-242.1365398079
 10
749.4800391197
 20
-246.7897754776
 10
752.7866550953
 20
-251.2935977222
 10
756.227847436
 20
-255.6302320131
 10
759.7900353278
 20
-259.782563636
 10
763.4591604425
 20
-263.7342052348
 10
767.2207424195
 20
-267.4695614856
 10
771.0599360133
 20
-270.9738906438
 10
774.9615896807
 20
-274.2333627232
 10
778.9103053772
 20
-277.2351140765
 10
782.8904993259
 20
-279.9672981625
 10
786.8864635197
 20
-282.419132299
 10
790.8824277135
 20
-284.5809402166
 10
794.8626216622
 20
-286.4441902471
 10
798.8113373587
 20
-288.001528994
 10
802.7129910261
 20
-289.2468103527
 10
806.5521846199
 20
-290.1751197665
 10
810.3137665969
 20
-290.7827936224
 10
813.9828917116
 20
-291.0674337092
 10
817.5450796034
 20
-291.0279166825
 10
820.9862719441
 20
-290.664398498
 10
824.2928879197
 20
-289.9783137959
 10
827.4518778275
 20
-288.972370239
 10
830.4507745776
 20
-287.6505378271
 10
833.2777428947
 20
-286.0180332288
 10
835.9216260262
 20
-284.0812991938
 10
838.3719897733
 20
-281.8479791266
 10
840.6191636698
 20
-279.3268869213
 10
842.6542791469
 20
-276.5279721769
 10
844.4693045337
 20
-273.4622809313
 10
846.057076754
 20
-270.1419120672
 10
847.4113295964
 20
-266.5799695636
 10
848.5267184436
 20
-262.7905107803
 10
849.3988413654
 20
-258.7884909798
 10
850.024256491
 20
-254.589704306
 10
850.4004955926
 20
-250.2107214515
 10
850.5260738265
 20
-245.6688242613
  0
LWPOLYLINE
  5
B0
330
1F
100
AcDbEntity
  8
0
  6
Continuous
 62
     7
370
    25
100
AcDbPolyline
 90
       95
 70
   128
 43
0.0
 10
842.9600312678
 20
-241.301040863
 10
842.834812185
 20
-236.9038177523
 10
842.4597141953
 20
-232.3816588317
 10
841.8364125776
 20
-227.7547611609
 10
840.967691148
 20
-223.0437895879
 10
839.8574298275
 20
-218.2697844555
 10
838.5105873125
 20
-213.4540676295
 10
836.9331789287
 20
-208.6181472703
 10
835.1322497649
 20
-203.7836217721
 10
833.1158432078
 20
-198.9720832994
 10
830.8929650188
 20
-194.205021351
 10
828.4735431112
 20
-189.5037267828
 10
825.8683832109
 20
-184.8891967177
 10
823.0891205941
 20
-180.382040767
 10
820.1481681226
 20
-176.0023889834
 10
817.0586608038
 20
-171.769801955
 10
813.8343971276
 20
-167.7031834428
 10
810.4897774382
 20
-163.8206959524
 10
807.0397396191
 20
-160.1396796153
 10
803.4996923766
 20
-156.6765747441
 10
799.8854464211
 20
-153.4468484058
 10
796.2131438524
 20
-150.4649253424
 10
792.4991860653
 20
-147.744123546
 10
788.7601604967
 20
-145.2965947779
 10
785.0127665426
 20
-143.1332702959
 10
781.2737409741
 20
-141.2638120321
 10
777.559783187
 20
-139.6965694411
 10
773.8874806183
 20
-138.4385422087
 10
770.2732346628
 20
-137.4953489898
 10
766.7331874203
 20
-136.8712023144
 10
763.2831496011
 20
-136.568889773
 10
759.9385299117
 20
-136.5897615669
 10
756.7142662355
 20
-136.9337244774
 10
753.6247589168
 20
-137.5992422829
 10
750.6838064452
 20
-138.5833426192
 10
747.9045438285
 20
-139.8816302552
 10
745.2993839281
 20
-141.4883067233
 10
742.8799620206
 20
-143.3961962164
 10
740.6570838315
 20
-145.5967776367
 10
738.6406772745
 20
-148.0802226536
 10
736.8397481106
 20
-150.8354395985
 10
735.2623397269
 20
-153.850123004
 10
733.9154972119
 20
-157.110808562
 10
732.8052358913
 20
-160.6029332592
 10
731.9365144618
 20
-164.3109004192
 10
731.313212844
 20
-168.2181493603
 10
730.9381148544
 20
-172.3072293604
 10
730.8128957716
 20
-176.5598775955
 10
730.9381148544
 20
-180.9571007062
 10
731.313212844
 20
-185.4792596268
 10
731.9365144618
 20
-190.1061572976
 10
732.8052358913
 20
-194.8171288706
 10
733.9154972119
 20
-199.591134003
 10
735.2623397269
 20
-204.406850829
 10
736.8397481106
 20
-209.2427711882
 10
738.6406772745
 20
-214.0772966864
 10
740.6570838315
 20
-218.8888351591
 10
742.8799620206
 20
-223.6558971075
 10
745.2993839281
 20
-228.3571916757
 10
747.9045438285
 20
-232.9717217408
 10
750.6838064452
 20
-237.4788776915
 10
753.6247589168
 20
-241.8585294751
 10
756.7142662355
 20
-246.0911165035
 10
759.9385299117
 20
-250.1577350157
 10
763.2831496011
 20
-254.0402225062
 10
766.7331874203
 20
-257.7212388432
 10
770.2732346628
 20
-261.1843437144
 10
773.8874806183
 20
-264.4140700527
 10
777.559783187
 20
-267.3959931161
 10
781.2737409741
 20
-270.1167949125
 10
785.0127665426
 20
-272.5643236806
 10
788.7601604967
 20
-274.7276481626
 10
792.4991860653
 20
-276.5971064264
 10
796.2131438524
 20
-278.1643490174
 10
799.8854464211
 20
-279.4223762499
 10
803.4996923766
 20
-280.3655694687
 10
807.0397396191
 20
-280.9897161441
 10
810.4897774382
 20
-281.2920286855
 10
813.8343971276
 20
-281.2711568917
 10
817.0586608038
 20
-280.9271939811
 10
820.1481681226
 20
-280.2616761756
 10
823.0891205941
 20
-279.2775758393
 10
825.8683832109
 20
-277.9792882033
 10
828.4735431112
 20
-276.3726117352
 10
830.8929650188
 20
-274.4647222421
 10
833.1158432078
 20
-272.2641408218
 10
835.1322497649
 20
-269.780695805
 10
836.9331789287
 20
-267.02547886
 10
838.5105873125
 20
-264.0107954545
 10
839.8574298275
 20
-260.7501098965
 10
840.967691148
 20
-257.2579851993
 10
841.8364125776
 20
-253.5500180393
 10
842.4597141953
 20
-249.6427690982
 10
842.834812185
 20
-245.5536890981
 10
842.9600312678
 20
-241.301040863
  0
LINE
  5
B1
330
1F
100
AcDbEntity
  8
0
  6
Continuous
 62
     7
370
    25
100
AcDbLine
 10
-378.4745545564
 20
196.5497089117
 30
0.0
 11
-607.4745545564
 21
196.5497089117
 31
0.0
  0
LINE
  5
B2
330
1F
100
AcDbEntity
  8
0
  6
Continuous
 62
     7
370
    25
100
AcDbLine
 10
-149.4745545564
 20
196.5497089117
 30
0.0
 11
-378.4745545564
 21
196.5497089117
 31
0.0
  0
LINE
  5
B3
330
1F
100
AcDbEntity
  8
0
  6
Continuous
 62
     7
370
    25
100
AcDbLine
 10
-378.4745545564
 20
16.5497089117
 30
0.0
 11
-149.4745545564
 21
16.5497089117
 31
0.0
  0
LINE
  5
B4
330
1F
100
AcDbEntity
  8
0
  6
Continuous
 62
     7
370
    25
100
AcDbLine
 10
-607.4745545564
 20
16.5497089117
 30
0.0
 11
-378.4745545564
 21
16.5497089117
 31
0.0
  0
CIRCLE
  5
B5
330
1F
100
AcDbEntity
  8
0
  6
Continuous
 62
     7
370
    25
100
AcDbCircle
 10
-378.4745545564
 20
106.5497089117
 30
0.0
 40
79.29999999999995
  0
CIRCLE
  5
B6
330
1F
100
AcDbEntity
  8
0
  6
Continuous
 62
     7
370
    25
100
AcDbCircle
 10
-378.4745545564
 20
106.5497089117
 30
0.0
 40
89.99999999999994
  0
LINE
  5
B7
330
1F
100
AcDbEntity
  8
0
  6
Continuous
 62
     7
370
    25
100
AcDbLine
 10
-607.4745545564
 20
106.5497089117
 30
0.0
 11
-607.4745545564
 21
196.5497089117
 31
0.0
  0
LINE
  5
B8
330
1F
100
AcDbEntity
  8
0
  6
Continuous
 62
     7
370
    25
100
AcDbLine
 10
-607.4745545564
 20
16.5497089117
 30
0.0
 11
-607.4745545564
 21
106.5497089117
 31
0.0
  0
LINE
  5
B9
330
1F
100
AcDbEntity
  8
0
  6
Continuous
 62
     7
370
    25
100
AcDbLine
 10
-149.4745545564
 20
106.5497089117
 30
0.0
 11
-149.4745545564
 21
196.5497089117
 31
0.0
  0
LINE
  5
BA
330
1F
100
AcDbEntity
  8
0
  6
Continuous
 62
     7
370
    25
100
AcDbLine
 10
-149.4745545564
 20
16.5497089117
 30
0.0
 11
-149.4745545564
 21
106.5497089117
 31
0.0
  0
INSERT
  5
C6
330
1F
100
AcDbEntity
  8
FORMAT
100
AcDbBlockReference
  2
SW_CENTERMARKSYMBOL_1
 10
-378.4745545564
 20
106.5497089117
 30
0.0
  0
LINE
  5
C7
330
1F
100
AcDbEntity
  8
0
  6
Continuous
 62
     7
370
    25
100
AcDbLine
 10
-23.181551192
 20
-90.5169367342
 30
0.0
 11
-23.181551192
 21
-548.5169367342
 31
0.0
  0
LINE
  5
C8
330
1F
100
AcDbEntity
  8
0
  6
Continuous
 62
     7
370
    25
100
AcDbLine
 10
156.818448808
 20
-229.5169367342
 30
0.0
 11
156.818448808
 21
-90.5169367342
 31
0.0
  0
LINE
  5
C9
330
1F
100
AcDbEntity
  8
0
  6
Continuous
 62
     7
370
    25
100
AcDbLine
 10
156.818448808
 20
-548.5169367342
 30
0.0
 11
156.818448808
 21
-409.5169367342
 31
0.0
  0
LINE
  5
CA
330
1F
100
AcDbEntity
  8
0
  6
Continuous
 62
     7
370
    25
100
AcDbLine
 10
156.818448808
 20
-409.5169367342
 30
0.0
 11
291.818448808
 21
-409.5169367342
 31
0.0
  0
LINE
  5
CB
330
1F
100
AcDbEntity
  8
0
  6
Continuous
 62
     7
370
    25
100
AcDbLine
 10
291.818448808
 20
-229.5169367342
 30
0.0
 11
156.818448808
 21
-229.5169367342
 31
0.0
  0
LINE
  5
CC
330
1F
100
AcDbEntity
  8
0
  6
Continuous
 62
     7
370
    25
100
AcDbLine
 10
66.818448808
 20
-319.5169367342
 30
0.0
 11
156.818448808
 21
-409.5169367342
 31
0.0
  0
LINE
  5
CD
330
1F
100
AcDbEntity
  8
0
  6
Continuous
 62
     7
370
    25
100
AcDbLine
 10
156.818448808
 20
-229.5169367342
 30
0.0
 11
66.818448808
 21
-319.5169367342
 31
0.0
  0
LINE
  5
CE
330
1F
100
AcDbEntity
  8
0
  6
Continuous
 62
     7
370
    25
100
AcDbLine
 10
156.818448808
 20
-548.5169367342
 30
0.0
 11
-23.181551192
 21
-548.5169367342
 31
0.0
  0
LINE
  5
CF
330
1F
100
AcDbEntity
  8
0
  6
Continuous
 62
     7
370
    25
100
AcDbLine
 10
156.818448808
 20
-90.5169367342
 30
0.0
 11
-23.181551192
 21
-90.5169367342
 31
0.0
  0
LINE
  5
D0
330
1F
100
AcDbEntity
  8
0
  6
Continuous
 62
     7
370
    25
100
AcDbLine
 10
291.818448808
 20
-229.5169367342
 30
0.0
 11
291.818448808
 21
-409.5169367342
 31
0.0
  0
ENDSEC
  0
SECTION
  2
OBJECTS
  0
DICTIONARY
  5
C
330
0
100
AcDbDictionary
281
     1
  3
ACAD_GROUP
350
D
  3
ACAD_LAYOUT
350
1A
  3
ACAD_MLINESTYLE
350
17
  3
ACAD_PLOTSETTINGS
350
19
  3
ACAD_PLOTSTYLENAME
350
E
  3
ACAD_SCALELIST
350
47
  3
DWGPROPS
350
D1
  0
DICTIONARY
  5
D
102
{ACAD_REACTORS
330
C
102
}
330
C
100
AcDbDictionary
281
     1
  0
DICTIONARY
  5
1A
102
{ACAD_REACTORS
330
C
102
}
330
C
100
AcDbDictionary
281
     1
  3
Layout1
350
1E
  3
Layout2
350
26
  3
Model
350
22
  0
DICTIONARY
  5
17
102
{ACAD_REACTORS
330
C
102
}
330
C
100
AcDbDictionary
281
     1
  3
Standard
350
18
  0
DICTIONARY
  5
19
102
{ACAD_REACTORS
330
C
102
}
330
C
100
AcDbDictionary
281
     1
  0
ACDBDICTIONARYWDFLT
  5
E
102
{ACAD_REACTORS
330
C
102
}
330
C
100
AcDbDictionary
281
     1
  3
Normal
350
F
100
AcDbDictionaryWithDefault
340
F
  0
DICTIONARY
  5
47
102
{ACAD_REACTORS
330
C
102
}
330
C
100
AcDbDictionary
281
     1
  3
A0
350
48
  3
A1
350
49
  3
A2
350
4A
  3
A3
350
4B
  3
A4
350
4C
  3
A5
350
4D
  3
A6
350
4E
  3
A7
350
4F
  3
A8
350
50
  3
A9
350
51
  3
B0
350
52
  3
B1
350
53
  3
B2
350
54
  3
B3
350
55
  3
B4
350
56
  3
B5
350
57
  3
B6
350
58
  3
B7
350
59
  3
B8
350
5A
  3
B9
350
5B
  3
C0
350
5C
  3
C1
350
5D
  3
C2
350
5E
  3
C3
350
5F
  3
C4
350
60
  3
C5
350
61
  3
C6
350
62
  3
C7
350
63
  3
C8
350
64
  3
C9
350
65
  3
D0
350
66
  3
D1
350
67
  3
D2
350
68
  0
XRECORD
  5
D1
102
{ACAD_REACTORS
330
C
102
}
330
C
100
AcDbXrecord
280
     1
  1
DWGPROPS COOKIE
  2

  3

  4

  6

  7

  8
b.kav
  9

300
=
301
=
302
=
303
=
304
=
305
=
306
=
307
=
308
=
309
=
 40
0.0
 41
2459935.57554662
 42
2459935.575546794
  1

 90
        0
  0
LAYOUT
  5
1E
102
{ACAD_REACTORS
330
1A
102
}
330
1A
100
AcDbPlotSettings
  1

  2
none_device
  4

  6

 40
0.0
 41
0.0
 42
0.0
 43
0.0
 44
0.0
 45
0.0
 46
0.0
 47
0.0
 48
0.0
 49
0.0
140
0.0
141
0.0
142
1.0
143
1.0
 70
   688
 72
     1
 73
     0
 74
     5
  7

 75
    16
147
1.0
148
0.0
149
0.0
100
AcDbLayout
  1
Layout1
 70
     1
 71
     1
 10
0.0
 20
0.0
 11
420.0
 21
297.0
 12
0.0
 22
0.0
 32
0.0
 14
1.0000000000E+20
 24
1.0000000000E+20
 34
1.0000000000E+20
 15
-1.0000000000E+20
 25
-1.0000000000E+20
 35
-1.0000000000E+20
146
0.0
 13
0.0
 23
0.0
 33
0.0
 16
1.0
 26
0.0
 36
0.0
 17
0.0
 27
1.0
 37
0.0
 76
     0
330
1B
  0
LAYOUT
  5
26
102
{ACAD_REACTORS
330
1A
102
}
330
1A
100
AcDbPlotSettings
  1

  2
none_device
  4

  6

 40
0.0
 41
0.0
 42
0.0
 43
0.0
 44
0.0
 45
0.0
 46
0.0
 47
0.0
 48
0.0
 49
0.0
140
0.0
141
0.0
142
1.0
143
1.0
 70
   688
 72
     1
 73
     0
 74
     5
  7

 75
    16
147
1.0
148
0.0
149
0.0
100
AcDbLayout
  1
Layout2
 70
     1
 71
     2
 10
0.0
 20
0.0
 11
0.0
 21
0.0
 12
0.0
 22
0.0
 32
0.0
 14
0.0
 24
0.0
 34
0.0
 15
0.0
 25
0.0
 35
0.0
146
0.0
 13
0.0
 23
0.0
 33
0.0
 16
1.0
 26
0.0
 36
0.0
 17
0.0
 27
1.0
 37
0.0
 76
     0
330
23
  0
LAYOUT
  5
22
102
{ACAD_REACTORS
330
1A
102
}
330
1A
100
AcDbPlotSettings
  1

  2
none_device
  4
Letter_(8.50_x_11.00_Inches)
  6

 40
6.35
 41
6.35
 42
6.35000508
 43
6.35000508
 44
215.9
 45
279.4
 46
0.0
 47
0.0
 48
0.0
 49
0.0
140
0.0
141
0.0
142
1.0
143
1.0
 70
  1712
 72
     1
 73
     0
 74
     0
  7

 75
     0
147
1.0
148
0.0
149
0.0
100
AcDbLayout
  1
Model
 70
     1
 71
     0
 10
0.0
 20
0.0
 11
279.4
 21
215.9
 12
0.0
 22
0.0
 32
0.0
 14
0.0
 24
0.0
 34
0.0
 15
279.4
 25
215.9
 35
0.0
146
0.0
 13
0.0
 23
0.0
 33
0.0
 16
1.0
 26
0.0
 36
0.0
 17
0.0
 27
1.0
 37
0.0
 76
     0
330
1F
331
29
  0
MLINESTYLE
  5
18
102
{ACAD_REACTORS
330
17
102
}
330
17
100
AcDbMlineStyle
  2
Standard
 70
     0
  3

 62
   256
 51
90.0
 52
90.0
 71
     2
 49
0.5
 62
   256
  6
BYLAYER
 49
-0.5
 62
   256
  6
BYLAYER
  0
ACDBPLACEHOLDER
  5
F
102
{ACAD_REACTORS
330
E
102
}
330
E
  0
SCALE
  5
48
102
{ACAD_REACTORS
330
47
102
}
330
47
100
AcDbScale
 70
     0
300
1:1
140
1.0
141
1.0
290
     1
  0
SCALE
  5
49
102
{ACAD_REACTORS
330
47
102
}
330
47
100
AcDbScale
 70
     0
300
1:2
140
1.0
141
2.0
290
     0
  0
SCALE
  5
4A
102
{ACAD_REACTORS
330
47
102
}
330
47
100
AcDbScale
 70
     0
300
1:4
140
1.0
141
4.0
290
     0
  0
SCALE
  5
4B
102
{ACAD_REACTORS
330
47
102
}
330
47
100
AcDbScale
 70
     0
300
1:5
140
1.0
141
5.0
290
     0
  0
SCALE
  5
4C
102
{ACAD_REACTORS
330
47
102
}
330
47
100
AcDbScale
 70
     0
300
1:8
140
1.0
141
8.0
290
     0
  0
SCALE
  5
4D
102
{ACAD_REACTORS
330
47
102
}
330
47
100
AcDbScale
 70
     0
300
1:10
140
1.0
141
10.0
290
     0
  0
SCALE
  5
4E
102
{ACAD_REACTORS
330
47
102
}
330
47
100
AcDbScale
 70
     0
300
1:16
140
1.0
141
16.0
290
     0
  0
SCALE
  5
4F
102
{ACAD_REACTORS
330
47
102
}
330
47
100
AcDbScale
 70
     0
300
1:20
140
1.0
141
20.0
290
     0
  0
SCALE
  5
50
102
{ACAD_REACTORS
330
47
102
}
330
47
100
AcDbScale
 70
     0
300
1:30
140
1.0
141
30.0
290
     0
  0
SCALE
  5
51
102
{ACAD_REACTORS
330
47
102
}
330
47
100
AcDbScale
 70
     0
300
1:40
140
1.0
141
40.0
290
     0
  0
SCALE
  5
52
102
{ACAD_REACTORS
330
47
102
}
330
47
100
AcDbScale
 70
     0
300
1:50
140
1.0
141
50.0
290
     0
  0
SCALE
  5
53
102
{ACAD_REACTORS
330
47
102
}
330
47
100
AcDbScale
 70
     0
300
1:100
140
1.0
141
100.0
290
     0
  0
SCALE
  5
54
102
{ACAD_REACTORS
330
47
102
}
330
47
100
AcDbScale
 70
     0
300
2:1
140
2.0
141
1.0
290
     0
  0
SCALE
  5
55
102
{ACAD_REACTORS
330
47
102
}
330
47
100
AcDbScale
 70
     0
300
4:1
140
4.0
141
1.0
290
     0
  0
SCALE
  5
56
102
{ACAD_REACTORS
330
47
102
}
330
47
100
AcDbScale
 70
     0
300
8:1
140
8.0
141
1.0
290
     0
  0
SCALE
  5
57
102
{ACAD_REACTORS
330
47
102
}
330
47
100
AcDbScale
 70
     0
300
10:1
140
10.0
141
1.0
290
     0
  0
SCALE
  5
58
102
{ACAD_REACTORS
330
47
102
}
330
47
100
AcDbScale
 70
     0
300
100:1
140
100.0
141
1.0
290
     0
  0
SCALE
  5
59
102
{ACAD_REACTORS
330
47
102
}
330
47
100
AcDbScale
 70
     0
300
1/128" = 1'-0"
140
0.0078125
141
12.0
290
     0
  0
SCALE
  5
5A
102
{ACAD_REACTORS
330
47
102
}
330
47
100
AcDbScale
 70
     0
300
1/64" = 1'-0"
140
0.015625
141
12.0
290
     0
  0
SCALE
  5
5B
102
{ACAD_REACTORS
330
47
102
}
330
47
100
AcDbScale
 70
     0
300
1/32" = 1'-0"
140
0.03125
141
12.0
290
     0
  0
SCALE
  5
5C
102
{ACAD_REACTORS
330
47
102
}
330
47
100
AcDbScale
 70
     0
300
1/16" = 1'-0"
140
0.0625
141
12.0
290
     0
  0
SCALE
  5
5D
102
{ACAD_REACTORS
330
47
102
}
330
47
100
AcDbScale
 70
     0
300
3/32" = 1'-0"
140
0.09375
141
12.0
290
     0
  0
SCALE
  5
5E
102
{ACAD_REACTORS
330
47
102
}
330
47
100
AcDbScale
 70
     0
300
1/8" = 1'-0"
140
0.125
141
12.0
290
     0
  0
SCALE
  5
5F
102
{ACAD_REACTORS
330
47
102
}
330
47
100
AcDbScale
 70
     0
300
3/16" = 1'-0"
140
0.1875
141
12.0
290
     0
  0
SCALE
  5
60
102
{ACAD_REACTORS
330
47
102
}
330
47
100
AcDbScale
 70
     0
300
1/4" = 1'-0"
140
0.25
141
12.0
290
     0
  0
SCALE
  5
61
102
{ACAD_REACTORS
330
47
102
}
330
47
100
AcDbScale
 70
     0
300
3/8" = 1'-0"
140
0.375
141
12.0
290
     0
  0
SCALE
  5
62
102
{ACAD_REACTORS
330
47
102
}
330
47
100
AcDbScale
 70
     0
300
1/2" = 1'-0"
140
0.5
141
12.0
290
     0
  0
SCALE
  5
63
102
{ACAD_REACTORS
330
47
102
}
330
47
100
AcDbScale
 70
     0
300
3/4" = 1'-0"
140
0.75
141
12.0
290
     0
  0
SCALE
  5
64
102
{ACAD_REACTORS
330
47
102
}
330
47
100
AcDbScale
 70
     0
300
1" = 1'-0"
140
1.0
141
12.0
290
     0
  0
SCALE
  5
65
102
{ACAD_REACTORS
330
47
102
}
330
47
100
AcDbScale
 70
     0
300
1-1/2" = 1'-0"
140
1.5
141
12.0
290
     0
  0
SCALE
  5
66
102
{ACAD_REACTORS
330
47
102
}
330
47
100
AcDbScale
 70
     0
300
3" = 1'-0"
140
3.0
141
12.0
290
     0
  0
SCALE
  5
67
102
{ACAD_REACTORS
330
47
102
}
330
47
100
AcDbScale
 70
     0
300
6" = 1'-0"
140
6.0
141
12.0
290
     0
  0
SCALE
  5
68
102
{ACAD_REACTORS
330
47
102
}
330
47
100
AcDbScale
 70
     0
300
1'-0" = 1'-0"
140
12.0
141
12.0
290
     0
  0
ENDSEC
  0
EOF
